c 
Something To Listen To Monday Songs
Castles burning 
Shipwreck Water 
Lost You... 
Her own Two Feet 
7 Windsor Ct. 
Outside Yourself 
Cap Le Moine 
Nine Days of Rain 
Things We Said 
All my Reasons 
Miss Alva Maria 
Muddy Water 
A bit of Truth 
Making Amends 
This Music 
Where you going now? 
Long Hard Road 
I'd Go Crazy 
Oklahoma City 
The End of Agent Bobby Roe 
Behind an Old Blue Vase 
My Brother 
Waiting on the Corner 
See You in a Crowd 
Road You Go Down 
Three Madding Crowd
Down With The Ship 
Greener Grass 
Ghosts In The Graveyard 
Shoes On The Bed 
Wonder 
Regrets 
Mexico 
On Her Way To Boston 
So Far Away 
Absolutely (Story of a Girl) 
If I Am 
End Up Alone 
Sometimes 
Bob Dylan 
257 Weeks 
Bitter 
Back to Me 

Crazy 
Revolve 
Wanna Be
So Happily Unsatisfied John Hampson - 17m38s
Favorite Song 
Good Friend 
Emily 
Marvelous 
Still Here 
The Joneses 
Don't Look Back 
I Feel Fine 
Ocean 
Everything
Beautiful 
Great Divide
Ultimate Love Song 
She Won't Get Away
The In Crowd
Anywhere
Sweeter Than
 
Flying the Corporate Jet Other
29 Year Old Girls
Goodbye 
Wonderful 
Something Has Gone Wrong 
Reality TV
Devil You Know 
Catch Me If You Can 
The Moment 
17 And 33
Nothing Better
So Unfair
Another Day
Dirty Poet



I Feel Fine

Tab by Solowalker

Back to Top

tune down 1/2 step (standard Eb)

All chords are power chords with the top two strings open

Intro/Verse:
A B C#

*A B G# (quick part) C# D# E

Pre-Chorus:
A B

Chorus:
E C# A (B)

Bridge:
G# C# B

E <--- only part I'm not sure about


*Tip: play first 3 on E string then jump up to A string for the C# on up


That's pretty much it. It's tough, but to get the exact riff on the acoustic at the beginning, you need to go 4-5 on the B string during the C#. If you don't know what I mean, play it and maybe you will. During the chorus and the end of the bridge, the bass is doing some wicked work so it's kinda tough to sort out the electric/acoustic chords, but that's what I got. If anyone thinks they have something better, let me know, please :).



Reality TY
Tab by
Shiner

Back to Top

intro/verses:
dont know the exact names of the chords,just what they are
gsus? Dsus? Csus4 Dsus?
3x0000, x54000, x32000, x54000.

Listen to the song to get the strum pattern down. Its kind of unique

im just gonna call them by the chord letter, you get the idea

G D C D G
Joe millionaire he lived a life that was fair, he worked construction although
D C
he wasn't happy there etc.

Bridge:
em C am D
he was so alone, so alone. now these women are competing for him

Chorus:
These are the actual chords of G,D+C as opposed to the intro....where am i going with this??,neways......here goes

G D C G D
everybody's talking bout reality TV, I don't know it seems to be just a
C
bunch of crap to me etc



Greener Grass
Tab by Mehdi

Back to Top

C7 : 020320
F7 : 112330

Capo on 4th fret :


Intro : C7/C C7/C C7/C
F7/F F7/F F7/F ...x4

Verse : C Am G F/C
Am F C ...won't find
C Am F C
C Am F C ...don't hear

Chorus : G Am G F Am G ...that you knew

Intro
Verse ...will never fade
Chorus ...that you knew
Intro
Chorus
Intro and C7 to conclude
Ultimate Love Song
Tab by Mehdi
Back to Top

INTRO : C Am G F x2

C Am G F C Am G F
I would be a grain of sand that was stuck between your toes

C Am G F C Am G F
The mirror on your bedroom door, when you slip out of your clothes

C Am G F C Am G F
And I would like to be your hair when its all tied up in bows

C Am G F C Am GF
And I would be the silky skin that is covering your bones

F C
This is the ultimate love song

Am G
'cause you are the ultimate love lost

F C
and I never thought it would hurt so

Am G
'cause I never thought that you would go

Dm F
now everyone elses heartbreak should be measured by my pain

Dm F
and all the beauty in this world has spiraled down the drain

Good Friend
Tab by Mehdi

Back to Top

Good Friend acoustic (capo on 1st fret)

Intro : Em D G (2x)

Verse : Em D G (3x)

Pre-chorus : Cadd9 Em7 Cadd9 D

Chorus : Cadd9 G (x4)

Verse
Pre-chorus
Chorus

Break : G Em7 D Cadd9 (x4)

Solo (like verse)
Pre-chorus
Chorus.



Favorite Song
Tab by Mehdi
Back to Top

Favourite song (capo on 1st fret)

Intro : D G Bm A (x2)

Pre-verse & verse : D Bm A G (x2)

Pre-chorus : Em G (2x)

Chorus : (A) D G Bm A (x3)

Verse
Pre-chorus
Chorus

Solo : G A G Bm A G A G Bm A G F# A A

Chorus.
Emily
Tab by Mehdi

Back to Top

Intro & verse : Dm Bm F C#

“but I am“ : Dm G

Verse + “but I am oh yes I am”
Chorus : (A) Bm F Bm F (A) Bm F Bm G

Verse

“but we are for ever more” : Dm G

Chorus

Break : G D C G D A

Solo : Dm Bm F C# (x2)

Verse
Chorus.
257 Weeks 
Tab by
TCcracker84

Back to Top

/ slide up slide down b bend 

Intro: 
Piano 
e ----------------------------------- 
B ----------------------------------- 
G --7-7-7-7-7-7-7-7--7-7-7-6-6-6-6-6- 
D --7-7-7-7-7-7-7-7--7-7-7-7-7-7-7-7- 
A ----------------------------------- 
E ----------------------------------- 

you could be waiting for a day that wont come 
and you could be so much more than youve become 
and i have found my feet 257 weeks 
but you could be waiting for a day that wont come 


...and i have found my feet... 
e ------------------------------- 
B ------------------------------- 
G --7-7-7-9-9-9-9-9-7-7-7-6-6-6-- 
D --7-7-7-7-7-7-7-7-7-7-7-7-7-7-- 
A ------------------------------- 
E ------------------------------- 

Pick-up thingee - guitar and piano 
e ------------- 
B ------------- 
G ------------- 
D ------0---0-- 
A --0-2---2---- 
E ------------- 

-when the drums come in: guitar 
e ---------------- 
B ---------------- 
G --7--7----7--7-- listen for right beats 
D ---------------- 
A ---------------- 
E ---------------- 

you could be waiting for your life to begin 
and you could be so much more than youve been 
and i have found my feet 257 weeks 
but you could be waiting for a day that wont come 

pickup into chorus: B and then A 

Chorus: 

G D B 
so sad, you're so good and im so bad 
G D A (slide up and down) B 
but you wont see me wastin' the best thing i ever had 
G D B 
and its such a shame, that I can't tell you anything 
(played on up beats): 
G A 
you wont hear me, still you endear me now... 

little mini-solo after 1st chorus: 
e -5/7-7-7-75-5-5-5-------------- 
B -------------------0-0/1-2-2 2--- 
G --------------------------------- 
D --------------------------------- 
A --------------------------------- 
E --------------------------------- 

e ---------------------------- 
B --3b-3b-3b-3-33-3----------- 
G ---------------------------- 
D -------------------2--4--2-- 
A ---------------------------- 
E ---------------------------- 


hard to see past the window facing forward looking back 
over years spent tracing wondering how you left your track 
underwater breathing burns your lungs and breaks your back 
and you could be waiting right here for a day that wont come 

Chorus 

pre-solo thingee: 
e --5-5-5-5-5-5------5-----5--------------- 
B --------5-5-5--5/7---6/7----87-75-53-- 
G ----------------------------------------- 
D ----------------------------------------- 
A ----------------------------------------- 
E ----------------------------------------- 

Solo: i think it uses a Chorus Petal 
e --5-2----------------------0/2-2-----0/2-2-----0--- 
B ------0-3-5-7-5-3-3---0/3--------5-3-------5-3----- 
G -------------------------------------------------2- 
D --------------------------------------------------- 
A --------------------------------------------------- 
E --------------------------------------------------- 

e ---------------------2--2/5------0-2-0-2-------0-2-0-- 
B ------3-5-3--5-3/5-5/--------0/2-----------0/2-------- 
G --0/2------------------------------------------------- 
D ------------------------------------------------------ 
A ------------------------------------------------------ 
E ------------------------------------------------------ 

you could be waiting for your life to begin 
and you could be so much more than youve been 
and i have found my feet 257 weeks 
but you coul be waiting for your life to begin 

Chorus (2x) 

pre-solo thingee: played twice i think 
e --5-5-5-5-5-5------5-----5--------------- 
B --------5-5-5--5/7---6/7----87-75-53-- 
G ----------------------------------------- 
D ----------------------------------------- 
A ----------------------------------------- 
E ----------------------------------------- 



Absolutely (Story of a Girl)
Tab by TCcracker84
Back to Top

Csus2 G5
This is the story of a girl 
A7sus4 D
Who cried a river and drowned the whole world 
Bm Csus2
And while she looks so sad in photographs 
A7sus4
I absolutely love her 
G5 D Csus2 G5 D Csus2
When she smiles 

Bm Csus2
How many days in a year 
G5 D
She woke up with hope but she only found tears 
Bm Csus2
And I can be so insincere 
G5 D
Making the promises never for real 
Bm Csus2
As long as she stands there waiting 
G5 D
Wearin' the holes in the soles of her shoes 
Bm Csus2
How many days disappear 
G5 D
You look in the mirror, so how do you choose 

Em7 Dadd4/F#
Your clothes never wear as well the next day 
G5 A7sus4
And your hair never falls in quite the same way 
Em7 Dadd4/F# A7sus4
You never seem to run out of things to say 

Csus2 G5
This is the story of a girl 
A7sus4 D
Who cried a river and drowned the whole world
Bm Csus2
And while she looks so sad in photographs
A7sus4
I absolutely love her
G5 D Csus2 G5 D Csus2 
When she smiles

Bm Csus2
How many lovers would stay
G5 D
Just to put up with this shit day after day
Bm Csus2
How did we wind up this way 
G5 D
Watching our mouths for the words that we say
Bm Csus2
As long as we stand here waiting
G5 D
Wearing the clothes of the souls that we choose
Bm Csus2
How do we get there today
G5 D
When we're walking too far for the price of our shoes
Em7 Dadd4/F#
Your clothes never wear as well the next day
G5 A7sus4
And your hair never falls in quite the same way
Em7 Dadd4/F# A7sus4
But you never seem to run out of things to say

Csus2 G5
This is the story of a girl 
A7sus4 D
Who cried a river and drowned the whole world 
Bm Csus2
And while she looks so sad and lonely there
A7sus4
I absolutely love her 
G5 
When she smiles

Solo: Bm Csus2 G5 D (play 4 times... you can fool around with some 
of the other chords here)

Em7 Dadd4/F#
Your clothes never wear as well the next day
G5 A7sus4
And your hair never falls in quite the same way
Em7 Dadd4/F# A7sus4
But you never seem to run out of things to say

Csus2 G5
This is the story of a girl 
A7sus4 D
Who cried a river and drowned the whole world 
Bm Csus2
And while she looks so sad in photgraphs
A7sus4
I absolutely love her 

Csus2 G5
This is the story of a girl 
A7sus4 D
Her pretty face she hid from the world
Bm Csus2
And while she looks so sad and lonely there
A7sus4
I absolutely love her 

Csus2 G5
This is the story of a girl 
A7sus4 D
Who cried a river and drowned the whole world 
Bm Csus2
And while she looks so sad in photographs
A7sus4
I absolutely love her 
G5 D Csus2 G5 
When she smiles
D Csus2 G5 D Csus2 G5
When she smiles...


Chords:

Csus2----030033
G5-------300033
A7sus4---002233
D--------000232
Bm-------024432
Em7------022033
Dadd4/F#-200233



Crazy
Tab by TCcracker84
Back to Top

Intro, Verse

e-3---------3---------------------
B-3---------3---------------------
G-0---------0---------------------
D-0---------2---------------------
A-2--0-h2---3---------------------
E-3-------------------------------

The words inside...

e--3--3--3-----------
B--3--3--2-----------
G--0--0--3-----------
D--2--2--0-----------
A--3--2--------------
E--------------------

Dont you know...

e-3--------3----3---------
B-3--------3----2---------
G-0--------0----3---------
D-0--------2----0---------
A-2--0-h2--3--------------
E-3-----------------------


The 2nd chord to the D, is quick


If I Am
Tab by Scott McKenna
Back to Top

Verse G Em C Am

So you’re standing on the ledge it looks like you might fall…. so far 
down or maybe you were 
Thinking about jumping.., now you could have it all if you learned a 
lot of patience.. for though I cannot fly im not content to crawl….to 
give me a little credit…, have in me a little faith I wanna be with you 
forever if tomorrow’s not too late

Pre Chorus Em D G Em D Em Cadd9
But its always too late when you got nothing….so you say. And you 
should never let the sunset on tomorrow before the sunrises today.

Chorus G D Cadd9 G Em/G D Cadd9
If I am…..another waste of everything you dreamed of I will let you 
down………If I am only here to watch you as you suffer……I will let you down…. 
G Cadd9 G Em D

Verse G Em C Am
So you’re walking on the edge and you wait your turn to fall but you’re 
so far gone that you don’t see the hands upheld to catch…..and you 
could find the fault in the heart that you’ve been handed for though you 
cannot fly you’re not content to crawl…

Pre-Chorus Em D G Em D Em Cadd9
And it’s always too late when you got nothing so you say……and you 
should never let the sunset on tomorrow before the sunrises today

Chorus G D Cadd9 G Em/G D Cadd9
If I am another waste of everything you dreamed of….i will let you 
down……if I am only here to watch you as you suffer…..i will let you down. G 
Cadd9 G Cadd9 ….

Last part..

Em/ Cadd9
So your standing on the ledge it looks like you might 
falllllllllllllllllllllllllllllll
Chorus
Outro Same Chords as Chorus
The Answers we find are never what we had in mind so we make it up as 
we go along….you don’t talk of dreams I won’t mention tomorrow and we 
won’t make those 
G D 
Cadd G Em D Cadd9
promises that we can’t keep……I will never leave you….i will not let you 
down……I will never leave you…….i will not let you down



Revolve
Tab by TCcracker84
Back to Top

INTRO (guitar 1-distortion): 
e|-----------------|-----------------| 
B|-----------------|-----------------| 
G|-7-7-7-7-7-7-7-7-|-6-6-6-6-6-6-6-6-| 
D|-0-0-0-0-0-0-0-0-|-0-0-0-0-0-0-0-0-| play this whole
A|-0-0-0-0-0-0-0-0-|-0-0-0-0-0-0-0-0-| thing twice.
E|-----------------|-----------------| 
^play 3 times ^play one time 

NEXT PART OF INTRO (still guitar 1): 
e|-----------------| 
B|-----------------| 
G|-7-6-4-2-0-------| 
D|-----------4-2-0-| play 3 times
A|-----------------| 
E|-----------------| 

INTRO (guitar 2-distortion): 
e|-------------------------------------------------------------| 
B|-------------------------------------------------------------| 
G|-7--7-7-7-7-7-7----------------------------------------------| 
D|-7--7-7-7-7-7-7-9--9-9-9-9-9-9-4--4-4-4-4-4-4-7--7-7-7-7-7-7-| play 
D|-7--7-7-7-7-7-7-9--9-9-9-9-9-9-4--4-4-4-4-4-4-7--7-7-7-7-7-7-| twice
A|-5--5-5-5-5-5-5-9--9-9-9-9-9-9-4--4-4-4-4-4-4-7--7-7-7-7-7-7-| 
E|----------------7--7-7-7-7-7-7-2--2-2-2-2-2-2-5--5-5-5-5-5-5-| 

NEXT PART OF INTRO (still guitar 2): 
e|-----------------------------------------------------------------
B|-----------------------------------------------------------------
G|-----------------------------------------------------------------
D|-5-5-5-5-5-5-5-5-7-7-7-7-7-7-7-7-9-9-9-9-9-9-9-9-7-7-7-7-7-7-7-7-
A|-5-5-5-5-5-5-5-5-7-7-7-7-7-7-7-7-9-9-9-9-9-9-9-9-7-7-7-7-7-7-7-7-
E|-3-3-3-3-3-3-3-3-5-5-5-5-5-5-5-5-7-7-7-7-7-7-7-7-5-5-5-5-5-5-5-5-

---------------------------------| 
---------------------------------| 
---------------------------------| 
-5-5-5-5-5-5-5-5-7-7-7-7-7-7-7-7-| 
-5-5-5-5-5-5-5-5-7-7-7-7-7-7-7-7-| 
-3-3-3-3-3-3-3-3-5-5-5-5-5-5-5-5-| 

VERSE (guitar 1 only): 
e|-----------------| 
B|-----------------| 
G|-7-x-7-7-7-x-x-x-| 
D|-0-x-0-0-0-x-x-x-| play.. 16 times?
A|-----------------| i lost count.
E|-----------------| 
"i wanna crawl inside..." 

PRE-CHORUS: 
e|-----------------------------| 
B|-----------------------------| 
G|-----------------------------| 
D|-5------7------4------5------| 
A|-5-(x8)-7-(x8)-4-(x8)-5-(x8)-|
E|-3------5------2------3------| 

alright.. i can't tell what the guitars actually do in the background, 
it's so soft and faint.. so just play this for now, it's what the bass 
plays, it'll sound fine. if anyone else can tell what the guitars do 
in the background, please let me know! 

CHORUS (guitar 1): 
e|---------|-----------------| 
B|---------|-----------------| 
G|-2-------|-7-6-4-2-0-------| 
D|-2-(x32)-|-----------4-2-0-| 
A|-0-------|-----------------| 
E|---------|-----------------| 
^play 3 times 

CHORUS (guitar 2): 
-same as intro!- 

POST-CHORUS AFTER FIRST CHORUS ONLY (guitar 1): 
e|-3---10--7--5--3--5-3-2-|-10-9-7-5-3-2-0----| 
B|------------------------|----------------3--| 
G|------------------------|-------------------| 
D|------------------------|-------------------| 
A|------------------------|-------------------| 
E|------------------------|-------------------| 
^play this twice 
i'm pretty sure these should be harmonics but i can't 
figure 'em out.. hehe. i suck! 

POST-CHORUS AFTER FIRST CHORUS ONLY (guitar 2): 
e|---| 
B|---| 
G|-7-| 
D|-0-| just figure out the rhythm and play 
A|---| under guitar 1, it shouldn't stick out too much. 
E|---| 

play verse again 

then pre-chorus 

then chorus 

BRIDGE (guitar 1): 
e|-----------------------------------------| 
B|-----10---8-7-----7-8---------10---8-7---| 
G|-7-9----------9-------7---7-9----------9-| 
D|-----------------------------------------| 
A|-----------------------------------------| 
E|-----------------------------------------| 

BRIDGE (guitar 2): 
e|--------------| 
B|--------------| 
G|--------------| 
D|--------------| play 3 times 
A|-5h7--9--7--5-| 
E|--------------| 

it sounds like there is a note being strummed on the 
open D string.. so i'm confused now. maybe my "guitar 1" is 
actually jeremy on the keyboard.. who knows? 

play pre-chorus 
--but stop the sound right when he sings "cause you are the only one" 
and then come back in again.

Wanna Be
Tab by TCcracker84
Back to Top

e------11----------10-----------8--------------
b---11----11----11----11----11----11---8---11--
g-8-----------8----------8---------------------
d----------------------------------------------
a----------------------------------------------
e----------------------------------------------

you brought me here... ( not really a guitar part )

e------------------------------------------------
b-3/4-3/4------------------------------------------
g-3---3---3---------------------------------------
d-1---1---3---6-----------------------------------
a---------1---6-----------------------------------
e---------1---4-----------------------------------
  So Far Away
Tab by Dan Mumford
Back to Top

       Am                             G  
If you leave, where will you go?  
            
   Em                                                           G
Before the regret you hold in your heart will start to show 
           
   Am                 
And if you leave, how will you know? 
      
Em                             G  
If our ever after ever had a chance to grow 
      
Am                   G  
Do you dream or do you sleep? 
      
Em                                          G }
Do you pick and choose amongst the jewels for one to keep 
      
Am          G  
Do you wish upon a star? 
        Em                                                 G  
Or does everything just out of reach seem just too far away  

Chorus:  

G               D  Cadd9  
Nothing seems to change 
         
D   G           D  Cadd9  
Let alone you wont forget my name 
           
   G    D        Cadd9
Just don't lose what you know 
    
D     G    D        Cadd9  
Just don't lose what you know 
              
D  
When you're so far away...  


2nd Verse: (same chords)  


Solo:  
Play 6 times
e--------------------------7-5--------------------------7-5--
B--5-5-5-5-5-5-5-5-5-5-5-5------5-5-5-5-5-5-5-5-5-5-5-5------
G------------------------------------------------------------
D------------------------------------------------------------
A------------------------------------------------------------   
E------------------------------------------------------------

What you lose is what you know  
Where you go is where you grow  
How near we've come has yet to show  
We've come so close yet so far away  
So far away  


Bridge:
e--2-0-2-0-2-0-2-0-2---  Play 12 times  
B--3-3-3-3-3-3-3-3-3---
G--0-0-0-0-0-0-0-0-0---
D----------------------
A----------------------   
E----------------------

What did I do to you?
What did I do to you?  

G                     D*
What did I do to you?
G                  D*  
What did I do to you?


Chorus: G               D  Cadd9  
Nothing seems to change 
         
D   G           D  Cadd9  
Let alone you wont forget my name 
           
   Em                D  
Just don't lose what you know  
 
              Am            Cadd9  
Just don't lose what you know 

When you're so far away...   G               D  Cadd9   D  
What did I do to you? So far away  
G               D  Cadd9   D  
What did I do to you? So far away  
G               D  Cadd9   D  
What did I do to you? So far away  
G               D  Cadd9   D  
What did I do to you? So far away  


Outro:
e--2-0-2-0-2-3-2-0---  Play 8 times  
B--3-3-3-3-3-3-3-3---  
G--0-0-0-0-0-0-0-0---  
D--------------------  
A--------------------             
E--------------------

Then strum  
e----3--------0------  Play 4 times  
B----3--------3------
G----0--------0------
D--------------------
A--------------------                  
E-------------------- Beautiful
Tab by Jon Chicote
Back to Top

-------------
A - 577655
C#m - x46654
E - 022100
B - x24442
G# - 466544
-------------

*Intro/Verse*
A - C#m - E - B - G# (x2)

*Chorus*
A - E (x3)
A - E - G#

*Pre-Verse*
A - B - C#m - B (x2)

Repeat *Verse*
Repeat *Chorus*
Repeat *Pre-Verse* (x2)

Then play this fill
e|--------------------|
B|-----2-5-4-2-0---2--|
G|-2-4-----------1----|
D|--------------------|
A|--------------------|
E|--------------------|

Then
A - E (x6)
A - E - G#

Play *Pre-Verse* till the end
Don't Look Back
Tab by
Jon Chicote
Back to Top

Standard Tuning -- eBGDAE (high to low)

Chords

F#ii C# D# B F#5 G#5 A#5 B5 F#5ii C#5 D#5 
e|-x--|--9--|--x-|--7--|---|----|----|---|----|----|----|
B|-11-|--9--|--6-|--7--|---|----|----|---|----|----|----|
G|-11-|-10--|--6-|--8--|---|----|----|---|-11-|--6-|--8-|
D|-11-|-11--|--6-|--9--|-4-|-6--|-8--|-9-|-11-|--6-|--8-|
A|--9-|-11--|--4-|--9--|-4-|-6--|-8--|-9-|--9-|--4-|--6-|
E|----|--9--|----|--7--|-2-|-4--|-6--|-7-|----|----|----|

*Intro/Verse*

F#ii - C# - D# - B (x6) (Make sure to accentuate the two top strings while playing C# and B)

*Pre-Chorus*

A#5 - B5 (x2)
G#5 - A#5 - B5

*Chorus*

B5 - F#5 - B5 - G#5 - A#5 - B5 - F#5 - B5 - G#5
or
F#5ii

Repeat Verse (x6)
Repeat Pre-Chorus
Repeat Chorus


*Bridge* (Not so sure about this one but it sounds close enough to me. Also if you
want you can improvise a riff over this based on the key given)

B5 - F#5 - C#5 (x3)
B5 - F#5 - G#5 - A#5 - B5

Repeat Chorus
Repeat Verse (x4)

End With
F#5ii
On Her Way To Boston
Tab by Doug Martin

Back to Top

Intro:
G    Am   C    D
G    Am   C    D

G          Am           C       
Parked outside in a car 
     D                           G               C         Am        D
down by the church this mornin’
G              Am                      C       
We never knew we’d get this far
     D                         G               C         Am        D  
The songs I played are chosin’
Am                                   D     
Never thought I’d see you leave
       
G
I drive in my car
   
Am             C
Asleep at the wheel
    
D               G
I dream about you
        
C                     Am           D
She’s on her way to Boston
     G                         Am           C
I woke last night in a cold dark room
          D                       G           C          Am       D
The window pane had frozen
   G                        Am            C
Some postcards, a letter, or a tune
    D                           G                 C                 Am       D
Would hang you for a little while, a little while
 G                      Am              C
Oh and as we sat upon my driveway
 D                 G               C                    Am       D
No words exchanged or spoken
 G                          Am            C
Oh in each other’s arms, the silent charms 
 D                         G          C            Am             D
Left us both heartbroken, yeah
Am                                   G/D
As I rode down Spruceten Street  
 
             G
I drive in my car
   Am              C
Asleep at the wheel
     D               G
I dream about you 
         C               Am     D
She’s on her way to Boston
              G
I drive in my car
   Am              C
Asleep at the wheel
     D               G
I won’t forget you
         C               Am   G
She’s on her way to Boston

G    Am   C    D
G    Am   C    D

 C
Too young to think twice
 D
Too young to know why
           G                                                      C                     Am
She’s gone, well I’ve been thinking about our time together
               Am
Some fareweather
          Am             G
She’s gone, she’s gone

End up Alone
Tab by NineDaysRulez
Back to Top

Intro:

G-D-A-E
Played like:

(v = down
^ = up)

v v ^ v ^ v v v ^ v ^ v
E—3-3-5-x-x-5-5-5-7-x-x-7
B—3-3-7-x-x-7-5-5-9-x-x-9
G—4-4-7-x-x-7-6-6-9-x-x-9
D—5-5-7-x-x-7-7-7-9-x-x-9
A—5-5-5-x-x-5-7-7-7-x-x-7
E—3-3-----------5-5-----------

And another guitar going:
E-5-5
B-5-5
Repeatedly

John Verse: (Chords same way as before)
G D
What I see is what's to be
A E
Cartwheels to eternity
G D
'Round and 'Round my head she goes
A E
In the good dreams though she wears no clothes

Break:

A-E-G-D-A-E-F#-D

G D
Took our picture by the sea,
A E
The ocean waits to carry me.
G D
Carry me back home again,
A E
To where she sleeps I lay my head...

Brian Verse:
D A E F#
Saw her running barefoot but the ground there never touched her feet
D A E F#
Watched her in the shadows while the tide came in and claimed our beach
D A E F#
We could've made it in the dunes we had it all within our reach
D A E F#
But I've got a lot of life to learn and you've got a lot of life to teach

Chorus:

A E G D
Why do we all end up alone
A E F# D
Why do we always have to find our way back home
A E G D
Why do we all end up alone
A E F# D
We gather no moss just like a rolling

Then the solo switches from Gmajor scale to Gminor Pentatonic and back.


Ocean
Tab by Mike Gregory

Back to Top

Verse
-------------------------------------
-------------------------------------
---------0------------------0--------
----4-------4----------4-------4-----
--5---5--------------5---5-----------
---------------3------------------2--
Fading like a wilted flower
even in our finest hour
all the dreams you realize
are sleeping here with me tonight
words are falling off the pages
letters kept like birds in cages
feeling like i've lost my mind
here forever missing you

Pre-Chorus
------------------------------------------
---------------3-----------3---3---3------
------2----------2-------2---2---2---2----
----4---4----4-----4---4---------------4--
--0--------2------------------------------
---------------------3--------------------
in dreams of lavish gifts we hide
and if you wake up near me here
you'll find

Chorus
--------------------
--2----3----3----3--
--2----2----2----0--
--x----0----4----0--
--4---------2----x--
-----------------3--
C#/D D Bm7 G

or if you like power chords
--------------------
--------------------
--6----7----4-------
--7----7----4----5--
--4----5----2----5--
-----------------3--
C#/D D Bm7 G

C#/D
that I would be the waters
D
of waves in oceans crashing
Bm7
on the shores of your body
G
I am forever sinking in your sand
C#/D
Don't have to look much farther
D
Standing strong for you
Bm7
I'd steal all the salt from the raging sea
G
To bring back lost divinity today


Everything
Tab by Doug Martin
Back to Top

Chords:
Cmaj7 (1)    X32000
A2              X02200
Cmaj7(2)    3X2000
D                X00232           
Dsus           X00233
G                320003
C                X32010
Em              022000

First Verse:
Cmaj7 (1)                      A2
I wont let you down,
                        Cmaj7 (2) 
if I'm not around
                            A2           
and you will be free,
                        Cmaj7 (1) 
and I will be myself
Cmaj7 (1)                                      A2
I wont fill your eyes with tears,
                               Cmaj7 (2) 
if I lose all my fears
                              A2           
but who would I be?  
                                    C
and would you recognize me?
                                    D  Dsus  D
tell me who would you see?  
                           G           
when you say...

Chorus:
G                                                     Em
that I would be yours and you would be mine
                                                            C           
and everything else here would work out just fine
                        Cmaj7 (1)                        D  Dsus  D
if you could hold on, We could be everything
                        Cmaj7 (1)           
We could be everything...
 
Second Verse: (same as first)

(repeat chorus)

Bridge:
Em                    G                                            C                       
I know that there's nothing in this world that you've known,
                        Cmaj7 (1)                              Em             
that I've shown, that could hurt you this way
                           G                        C
and I wish that I had no part in this play,
                                                 D  Dsus                       
and that we hadn't wound up this way
 
for I'd say...

(repeat chorus)


LeeLee
Tab by Doug Martin

Back to Top

Chords:
Ab        466544
Cm       335543
Db        446664
E          779997
Fm       133111
Eb        668886
F#       255422
E (2)    022100    
C#m    446654        

                                            Ab       Cm
Where are you LeeLee Sobieski
                                               
      Db                   E
These feelings I have don’t grow on trees anymore
             
Ab        
And its not as if you don’t know
           
    Cm                                            
how your hair breaths when the wind blows
Db                   E
I am so moved
          
Ab                         Cm
Let me be in your next picture
           
    Fm                         Eb
in your dreams so you can be sure
 
Db       C#m
I am the one
  
Ab
LeeLee

(Repeat first verse)
           Fm                      Ab
It’s a shame that I’m so sad
                      Fm                      Ab
while those around you act so bad
           
       F#
I could be better
          
Fm                      Ab
It’s a shame that I’m so sad
                     
Fm                      Ab
while those around you act so bad
                   
E (2)
I could be better
   
Ab
LeeLee 

(Repeat First Verse and Chorus) 

Last Chorus:
           Fm                      Ab
It’s a shame that I’m so sad
                     
Fm                      Ab
while those around you act so bad
           
       F#
I could be better
          
Fm                      Ab
It’s a shame that I’m so sad
                     
Fm                      Ab
while those around you act so bad
                   
E (2)         Fm
I could be better
                   
E (2)         Fm
I could be better
                   
E (2)         Db
I could be better
   
Ab
LeeLee

Outro:
Ab Cm Db E Ab

Bob Dylan
Tab by Mehdi
Back to Top

C
Bobby's in the basement making his movie,
He paints a little picture but not to be cheesy.
He wants this little girl to believe in him easy,
Bristles to the canvas imagining he feels high.

F C F C G

F C F
Inspriation of my heart search for light out of the dark.
C G F
All the pictures in my heart lie awake there in my fog.
C F
This oasis in my arms I approach it with disarm.
C G F
Though it might do me some harm stop to catch me if I fall.

C
Bobby's in the basement making his music,
He never won't stop though not to abuse it.
If there's some other way that they only would use it,
He lives another day but they always refuse it.

F C
Lacerations of my heart.
F
Dropped down in pieces in the dark.
C
Mixed the words up on this page.
G F
Makes the purple turn to beige.

(Repeat chorus)
Inspiration of my heart search for light out of the dark.
All the pictures in my heart lie awake there in my fog.
This oasis in my arms I approach it with disarm.
Though it might do me some harm stop to catch me if I fall.

D A Em G D A Em G
It's just like Bob Dylan says...
D A Em G
Stop depression of my own walk the only road I know.
D A Em G
If I am only dreamin' then I am not that far from it.
D A Em G
Sow the strength that grows from seeds worship creativity.
D A Em G
If I am only dreamin' then me an' Bob are not that far today.
So long as I'm young.

C
Bobby's in the basement making his music.

Solo : e-------------------------------------------------------------------------
B------------------------------------------------8--------------8--10---- ( 2X)
G---7---9-------------7---9------------7---9---------7---9-------------
D-----------10----------------10-----------------------------------------

F C
I search the beaches walk the sand.
F
I cut my feet on broken glass.
C
Strap the sandals on my feet.
G F
I'm run down but I still hit the street.
C F
Inspriation of my heart search for light out of the dark.
C G F
All the pictures in my heart lie awake there in my fog.

(D A Em G till the end)



Marvelous
Tab by Shiner
Back to Top

I’ve tabbed it with a capo on the 3rd fret, exact same if you play it in E, just easier I think
All chord names are with the capo on (including the intro solo). I absolutely love this song,
Possibly my favourite ND’s track ever……….

Intro:
Am Em F
C Am Em F

E----1~3-3-3~1p0-0-0-0-0-0---------------------------------------------------
B--------------------------------3-1-0-0h1-1-1-1-1p0-------------------------
G----------------------------------------------------------2p0---------------
D-----------------------------------------------------------------1~3---1p0--
A----------------------------------------------------------------------------
E----------------------------------------------------------------------------

~ = Slide
p = Pull Off
h = Hammer On

Verse 1:
C Am Em F
So you’ve been well, I couldn’t tell, I know you better
C Am Em
Remember when………………….etc

Chorus:
F G
Does my name still come up, was I marvellous?
C Am
You should have asked yourself, before you turned me down
F G
Your name still comes up, you are marvellous
C Am F
I should have told myself, before I let you down,
C Am Em F
Your marvellous

Verse 2:
C AM EM F
So Ive been fine, living a life etc(chords as verse 1)

Chorus:
As above

Bridge:
C F
So how you gonna feel when you know its all true, And you will think of me when you say I do
C F C
Excuse my state of mind, well did I spoil your valentine. For all the length we’ve walked in theses shoes
F G F
Eternal faith you’ve lost in me through, and when you walking down the aisle you wont stretch another mile
F F (The Crescendo, Yeah!!)
The memories will visualize, we were marvellous once………….

Outro Chorus: Same chords as above chorus
F G
My name will come up, I am marvellous etc

 
Anywhere
Tab by Doug Martin
Back to Top

Capo on 1st fret.

G        320033
A        X02220
A(2)   X0X033
Bm     224432
Bm(2) X2X033
Em     022000
D/G    200232 
F#m   244222
D        X00232

Intro:
G  A(2)  Bm  D/G  A(2)
G  A(2)  Bm  D/G  A(2)

                G                                      A(2)               Bm(2)             D/G  A(2)
Theres a girl in the corner of a coffee house bar, I see her so clearly and
  G                                            A(2)               Bm(2)                  D/G  A(2)        G
She writing letters that she never will send, I want her completely and
  A(2) Bm(2)           D/G  A(2)
I am awake and dreaming
   G          A(2)              F#m
From her lips fall the words I'm feeling

                         G              A       Bm                  D/G      A         
I would be anywhere but here, if only I could disappear 
     G                  A                  Bm              D/G  A 
I would with no fear that you would even miss me
                                G      A                    Bm                 D/G  A           G
And I would be anybody else, if somebody else was good enough for you
         A 
I feel
       G           A(2)                         Bm(2)           D/G  A(2)
A memory is like a stone on the shoreline of your heart
  G                                 A(2)                      Bm(2)                     D/G  A(2)        G
But the waves crash in with the moon and tear your beach apart
 A(2) Bm(2)            D/G  A(2)
I am aware I'm bleeding
   G         A(2)           F#m
My heart is a wound not healing

                         G              A       Bm                  D/G      A         
I would be anywhere but here, if only I could disappear 
     G                  A                  Bm              D/G  A 
I would with no fear that you would even miss me
                                G      A                    Bm                 D/G  A           G
And I would be anybody else, if somebody else was good enough for you
         A 
I feel
            Em                D/G                          G       A
Maybe you will even miss me when I'm gone
            Em                D/G                          G       A          G
Maybe you will even miss me when I'm gone

                 D      A            G
I wish I never saw your face
                 D        A              G
I wish I never spoke your name
                  D        A           G
Upon the stars I lay the blame
                   D                       A           G
They were the ones who knew my fate
D     A    G
My fate
D     A    G
My fate
D     A    Em  D/G
My fate

                         G              A       Bm                  D/G      A         
I would be anywhere but here, if only I could disappear 
     G                  A                  Bm              D/G  A 
I would with no fear that you would even miss me
                                G      A                    Bm                 D/G  A           G
And I would be anybody else, if somebody else was good enough for you
         A
I feel
            Em                D/G                          G       A
Maybe you will even miss me when I'm gone
            Em                D/G                          G       A          G        D
Maybe you will even miss me when I'm gone
 A     G      D
I'm gone
 A     G      D
I'm gone
 A     G      D    A
I'm gone

 

Dirty Poet
Tab by Mehdi
Back to Top

Capo on 2nd fret

intro : G

chorus : Em A F#m G D A (x2) ...go through life

verse : F#m G D A (x2) ...and say you're alright

pre-chorus : Em D A (x2) ...your arms again

 

The Joneses
Tab by Mehdi
Back to Top

intro/chorus : D# Bb D# G D# Bb G# ...don't you worry

verse : Bb Gm Fm ...silver spoon

D# B#m Bb ...it's true

Bb Gm Fm ...believing you


Riff before each verse :


e------------------------------------------------
B--15-13---------------------------------------
G----------15-12------------------------------- (x2)
D-------------------15-12------12-13-12----
A----------------------------15-----------------
E------------------------------------------------


Riff before the last verse :

e------13----13----13-----------------------------------------------------------------------
B--15----15----15----15-15--13-------------------15-13-------------------------------
G-------------------------------------15--12--15-----------15-12-------------------------
D----------------------------------------------------------------------15-12-----12-13-12
A-----------------------------------------------------------------------------15------------
E--------------------------------------------------------------------------------------------



The Moment
Tab by Doug Martin

Back to Top

D       X0023X
D/G   3X023X
Em7   X2X03X
Asus  X0223X
A       X0222X
G       3X003X

Intro:
D  D/G  Em7 Asus
D  D/G  Em7 Asus

D                         D/G      Em7                         Asus                 D
I can see that someone went and left you hanging from a string
              D/G         Em7                     
Asus                  D
And if I pulled hard I could make you do most anything
              D/G              Em7              
Asus                        D
You can run from the past but mistakes are meant to last
                     D/G  
Em7
Between the lines...        
                
Asus     A              G
These are mine

                                
Asus                                        G
The moment that you go is the moment that you know
               Em7                                                G                    
That the best thing in your life is happening
                          
Asus
So look me in the eye
                                                 G
And say you’ll never say goodbye
                  Em7                                                 D
I know the best thing in my life is happening now

D/G  Em7 Asus
D  D/G  Em7 Asus


D                         D/G      Em7           Asus                    D
You can tell your father I know that he won’t let you be
                           D/G   Em7       Asus                 D
Doesn’t wanna believe...  that you see him in me
              D/G              Em7            
Asus                     D
But the way that you lay so serene inside the gloom
             D/G        Em7
I don’t care
          
Asus        A                    G   
I don’t care

                                
Asus                                        G
The moment that we go is the moment that we’ll know
               Em7                                                G          
That the best thing in our life is happening
                                   
Asus
So before we say good bye 
                                     G
and leave them all behind
                  Em7                                                 G
Know the best thing in our life is happening now


            D        
Asus   Em7       D/G
And I won’t let you  ever fade
              D        
Asus   Em7       D/G
Like a sunburn wasted in L A
                 D             
Asus           Em7       D/G
And if we fall down breaking all along the way
                D         
                Asus                 Em7       D/G
I’ll lift you up and that’s a promise that I’ll never break
D             
        Asus   Em7   D/G
And then you won’t
D             
        Asus   Em7                 D
And then you won’t

                       D/G  Em7                
Asus                  D
We sit on the steps...   reading graffiti on the wall
                              D/G  Em7              
Asus                    D
The smile on your face,     more than words it says it all
              D/G              Em7         
Asus                   D  (F# in Bass)
On your way you will find the meaning in the rhyme
             D/G        Em7
You are mine
          
Asus        A                    G   
You are mine

                                
Asus                                        G
The moment that you go is the moment that you know
               Em7                                                G               
That the best thing in your life is happening
                              
Asus
Before we say goodbye
                                G
Just look me in the eye
                  Em7                                            D/G
I know the best thing in my life is happening...                     

   D     D/G   Em7  Asus  
Now
   D     D/G   Em7  Asus          D



Wonderful
Tab by Mehdi
Back to Top

Capo on 2nd fret.


Verse :

G Em C

e-2--2--3--3--2--2--3--3----2--2--0--0----2--2--3--3
B-3--3--3--3--3--3--3--3----0--0--0--0----3--3--3--3
G-0--0--0--0--0--0--0--0----0--0--0--0----0--0--0--0
D-0--0--0--0--0--0--0--0----2--2--2--2----0--0--0--0
A-0--0--0--0--0--0--0--0----2--2--2--2----3--3--3--3
E-3--3--3--3--3--3--3--3----0--0--0--0----0--0--0--0

...the days the nights ...for lack... ...what I used to be...



Pre- chorus :

Em D Bm C (x2)



Chorus :
(like the verse except the Em part which is a bit different on the e string)


G Em C

e-2--2--3--3--2--2--3--3----0--0--2--2----2--2--3--3
B-3--3--3--3--3--3--3--3----0--0--0--0----3--3--3--3
G-0--0--0--0--0--0--0--0----0--0--0--0----0--0--0--0 (x2)
D-0--0--0--0--0--0--0--0----2--2--2--2----0--0--0--0
A-0--0--0--0--0--0--0--0----2--2--2--2----3--3--3--3
E-3--3--3--3--3--3--3--3----0--0--0--0----0--0--0--0

...to you...

 
 
 29 Year Old Girls
Tab by Mehdi
Back to Top

 Intro/Verse : e----------------------
B----8-9-8-----------
G---------------------
D---------------------
A--------------------- …that I’ve been blessed
E---------------------


C Bb G# …ourselves

G# D# Bb …hearts

Pre-chorus : C Bb G# x2 …ourselves

Chorus : G# D# Bb x3
G# D# G/Bb/G

Verse : C Bb G# …heart

Pre-chorus : G# D# Bb

Chorus

Break : F G# D# Bb x2

Verse : G# D# Bb …some other place

Chorus …good enough

C Bb G# (to conclude)



So Unfair
Tab by One Leap

Back to Top

Capo 3rd Fret (chord fingering without capo)
x6534x Eb (C)
x3554x Cm (Am)
x3356x F (D5)
x6x54x G# (F/C)

VERSE 1
[...feel so good to look so good...]
Eb Cm F G#
Eb Cm F G#

PRE-CHORUS
[I wanna be right here...]
F G#

CHORUS
[...so unfair that your out of reach...]
Eb Cm F G#
Eb Cm F G#

VERSE 2
[...fly so high with your brand new wings...]
Eb Cm F G#
Eb Cm F G#

PRE-CHORUS
[...wanna be...]
F G#

CHORUS
[...so unfair that your out of reach...]
Eb Cm F G#
Eb Cm F G#

BRIDGE
[Do I really need to beg here baby...]
Cm F
Cm F
G#

*CHORUS
[...so unfair that your out of reach...]
Eb Cm F G#
Eb Cm F G#

*PRE-CHORUS
[...same to me...]
F G#

GUITAR LEAD/SOLO
Eb Cm F G#

*CHORUS
[...world I know that you do not see...]
Eb Cm F G#
F G#

Outro
Eb

 
 
 

Another Day
Tab by Jim B
Back to Top

Very easy song

Chords:
G      320033
Em7   022033
Cadd9  x32033
Dsus4 000233

Intro (piano)
just notes of the song chord progression
G Em7  Cadd9 Dsus4 (u can use just D if u want)

Verse 1.
G                Em7               Cadd9          Dsus4
Here's another day she waits and pulls herself away...

Pre chorus.
G                Em7               Cadd9          Dsus4
You needed just another girl to get you through the door 
G                Em7               Cadd9
You've got just enough honesty, to make you want
D
a little more
Chorus.
G  Em7      Cadd9    Dsus4
I wish for nothing but the rain
 G   Em7     Cadd9   Dsus4
to fall, and wash away everything
 
G           Em7
that I've done wrong
  Cadd9              Dsus4
find a way to make you strong
    Cadd9
if only for another day
 (and then back to G)
 
That's all you need, because the whole chord 
progression pretty much repeats itself and if 
you cant figure out the specific parts your self 
from those chords then you don't deserve to 
play them! good ol' nine days




Back to Me
Tab by Shig15
Back to Top

This is my first tab, but I'm pretty sure  this is right. 
You'll have to listen to the timing but it's a fairly easy song. 
If you find anything  wrong please e-mail so I can make 
the corrections, thanks.

Chords
Cadd9  x32033
D      xx0323
G6     x20033
F      133211
Em7    022033
G      320033

Chorus:

                      Cadd9
If You would just come back to me
               D
I would be so good
                   G6
Put your trust back in me
                     F
At least I think you should
                    Cadd9
We'll call it my pathology
              D
So I misunderstood
                G6
A bit selfish I should be
                   F
If I could change I would
                     Cadd9  D    G6  F
I can  see it  on my face
 
Cadd9  D    G6  F

Cadd9   D
All I wanted was a friend
G6      F
To look at me to comprehend
Cadd9    D
All I  wanted was to fly
G6       F
How could you sit and watch me die
Cadd9     D
All I wanted was you there
G6        F
Your cruelty was my despair
G6        D                G6           F
You just killed me so the story goes
 
Em7          D                 G                 Cadd9        
Once upon a time  there was a girl who loved 
       Em7      D
me more than life itself
            G        Cadd9
And by the duck pond she said
Em7              D                   G               Cadd9               
Carved our names into the bark we climbed the tree 
   Em7    D
I slipped and fell behind
                 G
And I now I'm sorry
  
CHORUS:
 
 All reminds me of your name
We saw fortune through the rain
Everyday and everyplace
Everywhere I kissed your face
All the sacrifice  in vein
How could you put all the blame
Upon me that's not fair so the story goes
 
Once upon a time we had the moon
we had the stars we were divine
 Upon my shoulders she cried
Now she hides her faith her fears and throws 
herself before her bed of lies
She'll be sorry
 
CHORUS:
 
BRIDGE: (same as verse)
 

 

Sometimes
Tab by Michelle
Back to Top

-2-2-0-0-0-3-2------2-2-0-0-0-3-3------------------|
-3-3-3-3-3-3-3-3----3-3-3-3-3-3-3-3----------------|
-2-2-2-2-2-2-2-2----2-2-2-2-2-2-2-2----------------|
---------------------------------------------------|
---------------------------------------------------|
---------------------------------------------------|
(2X) and repeats while other instruments come in..
(I will call this tab *D* so it'll be easier to tab with the lyrics underneath)
 
continue tab *D* THRU THESE WORDS....
 
Shadows they fall on the stage of your own life
Trailing behind footsteps
There's comfort in ghosts who are no longer with you
Hiding behind your death
 
(D)
----2----------|
--------3------|   "....I let you down, you've lost your.."
-----2---------|
-0-------------|
---------------|
---------------|
 
(Dsus2)
----O----------|
--------3------| .......I'm losing ground, I fall from grace..
-----2---------|
-0-------------|
---------------|
---------------|
 
sometimes
        D                    Dsus2                 G
You gotta set free what you love just to bring it back
               D
Oh, would you ever lose me
           DSUS2           G
Would you ever let go for that
EM7(022030)      Cadd9(032030)
And if the love is real,
                  G
you gotta let yourself go
                        D
Just to bring it back, sometimes
                  G
Just to bring it back,
 
EM7
MMmmm

              *D*
-2-2-0-0-0-3-2------2-2-0-0-0-3-3------------------|
-3-3-3-3-3-3-3-3----3-3-3-3-3-3-3-3----------------|
-2-2-2-2-2-2-2-2----2-2-2-2-2-2-2-2----------------|
---------------------------------------------------|
---------------------------------------------------|
---------------------------------------------------|
(2X)
 
(CONTINUE *D* THRU THESE WORDS..)
 
Hiding inside my asylum
I'm always hanging on by a thread
I can't expect you to respect me
Until I've learned to respect myself
 
----2----------|
--------3------|   "....I let you down, you've lost your.."
-----2---------|
-0-------------|
---------------|
---------------|
 
----O----------|
--------3------| .......I'm losing ground, I miss your face..
-----2---------|
-0-------------|
---------------|
---------------|
 
     EM7
Well, just listen
     EM7
Well, just listen
   G
Sometimes
        D                    Dsus2                 G
You gotta set free what you love just to bring it back
               D
Oh, would you ever lose me
           DSUS2           G
Would you ever let go for that
EM7(022030)      Cadd9(032030)
And if the love is real,
                  G
you gotta let yourself go
                        D
Just to bring it back, sometimes
                  G
Just to bring it back,
Oh, the love you're bringing back
(I DO *d* after this because I don't know the real riff)
        D                 D
I've let you down (I've let you down)
                     DSUS2
You've lost your own taste
      (020230)                  G
I'm losing ground, I fall from grace
      EM7
Well, just listen
    G
Sometimes
   G
Sometimes
 
        D                    Dsus2                 G
You gotta set free what you love just to bring it back
               D
Oh, would you ever lose me
           DSUS2           G
Would you ever let go for that
EM7(022030)      Cadd9(032030)
And if the love is real,
                  G
you gotta let yourself go
                        D
Just to bring it back, sometimes
                  G
Just to bring it back

..repeat chorus...




Bitter
Tab by RaVeNS
Back to Top

Intro:

e ||---2---2---2---2-|----2---2---2---2-|----2---2---2---2-|
B ||---3---3---3---3-|----2---2---2---2-|----3---3---3---3-|
G ||-----------------|------------------|--4---4---4---4---|
D ||-----0---0---0---|--0---0---0---0---|------------------|
A ||-----------------|------------------|------------------|
E ||-----------------|------------------|------------------|

e  |-----------------|------------------|------------------|
B  |---3---3---3---3-|----3---3---3---3-|----3---3---3---3-|
G  |---2---2---2---2-|----2---2---2---2-|----2---2---2---2-|
D  |-4---4---4---4---|--5---5---5---5---|--4---4---4---4---|
A  |-----------------|------------------|------------------|
E  |-----------------|------------------|------------------| 
e  |-----------------|------------------||
B  |---2---2---2---2-|----2---2---2---2-||
G  |---2---2---2---2-|----2---2---2---2-||
D  |-2---2---2---2---|------------------||
A  |-----------------|--0---0---0---0---||
E  |-----------------|------------------||


Verse 1:

(Repeat intro's riff)
In my heart, sent my confession, my condolence,
You're indefinite, you're incompetent, inconsiderate.
You're so childish, I'll push you
 
                             D                             A/Gb
Out of what is real out of my head.
                                 D                       Dsus2                                    G
You can stick and drown at your residence of disappointments,
                             D
Are of yours to come.
                                A                             A/D
So embrace them oh my shallow one today
 
CHORUS:
 
e ||-3--3--3--3---|-0--0--0--0----|-2--2--2--2----|-0--0--0--0---|
B ||-3--3--3--3---|-2--2--2--2----|-3--3--3--3----|-2--2--2--2---|
G ||--------------|---------------|---------------|--------------|
D ||---0--0--0--0-|---0--0--0--0--|---0--0--0--0--|---2--2--2--2-|
A ||--------------|---------------|---------------|--------------|
E ||--------------|---------------|---------------|--------------|

 
e ||-3---3---3---3---|-0---0---0---0----||
B ||-3---3---3---3---|-2---2---2---2----||
G ||-----------------|------------------||
D ||---0---0---0---0-|---2---2---2---2--||
A ||-----------------|------------------||
E ||-----------------|------------------||


If I could change anything
Then I would change everything
These bitter days shall remain
 
Post-Chorus:
e ||-2--2--2--2---|-2--2--2--2---|-2--2--2--2---|--------------|
B ||-3--3--3--3---|-2--2--2--2---|-3--3--3--3---|-3--3--3--3---|
G ||--------------|--------------|--------------|-2--2--2--2---|
D ||---0--0--0--0-|---0--0--0--0-|---0--0--0--0-|---4--4--4--4-|
A ||--------------|--------------|--------------|--------------|
E ||--------------|--------------|--------------|--------------|


e  |--------------|--------------|--------------|--------------||
B  |-3--3--3--3---|-3--3--3--3---|-2--2--2--2---|-2--2--2--2---||
G  |-2--2--2--2---|-2--2--2--2---|-2--2--2--2---|-2--2--2--2---||
D  |---5--5--5--5-|---4--4--4--4-|---2--2--2--2-|---0--0--0--0-||
A  |--------------|--------------|--------------|--------------||
E  |--------------|--------------|--------------|--------------||


Verse 2:
             D                             A/Gb
I don't ask for your forgiveness
                              D                          Dsus2
I don't care much for your actress.
                             G                                        D
That's just you though shallow and selfish.
               A                             A/D
So I go now oh my hollow one today.
 
CHORUS:
 
G                          A/D
If I could change anything
D                             A
Then I would change everything
G                           A
These bitter days shall remain
 
Bridge:
G                                            D
So carry your blues behind your eyes,
G                                     Em
Don't flatter yourself I will survive.
G                                           D
So carry your blues your own denial.
G                                         Em
Your feathers are gone you'll never fly
 
CHORUS:
G                           A/D
If I could change anything,
D                            A
Then I would wipe the years away.
G                          A/D
If I could change anything,
D                            A
Then I would wipe the years away.
G                          A/D
If I could change anything,
D                             A
Then I would change everything.
G                           A
These bitter days shall remain.
 
Post-Chorus:
e ||-2--2--2--2---|-2--2--2--2---|-2--2--2--2---|--------------|
B ||-3--3--3--3---|-2--2--2--2---|-3--3--3--3---|-3--3--3--3---|
G ||--------------|--------------|--------------|-2--2--2--2---|
D ||---0--0--0--0-|---0--0--0--0-|---0--0--0--0-|---4--4--4--4-|
A ||--------------|--------------|--------------|--------------|
E ||--------------|--------------|--------------|--------------|


e  |--------------|--------------|--------------|--------------||
B  |-3--3--3--3---|-3--3--3--3---|-2--2--2--2---|-2--2--2--2---||
G  |-2--2--2--2---|-2--2--2--2---|-2--2--2--2---|-2--2--2--2---||
D  |---5--5--5--5-|---4--4--4--4-|---2--2--2--2-|---0--0--0--0-||
A  |--------------|--------------|--------------|--------------||
E  |--------------|--------------|--------------|--------------||



Since you're gone I'm much better than you.
 
Bridge:

e ||--3-----3----------2---2------- 3---3------0---0----||
B ||--3-------3----------3---3--------3---3------0---0--||
G ||--0---------0----2------------0----------0----------||
D ||--0------------0------------------------------------||
A ||----------------------------------------------------||
E ||----------------------------------------------------||

 

So carry your blues behind your eyes,
Don't flatter yourself I will survive.

G                                           D
So carry your blues your own denial.
G                                         Em
Your feathers are gone you'll never fly.
  
Solo:
 
e ||----------------------------------------||
B ||-----------------10b--10h12-10-10h12-10-||
G ||---7b---7-7-9-11------------------------||         x4
D ||----------------------------------------||
A ||----------------------------------------||
E ||----------------------------------------||


She'll never fly.
 
After the Solo you have to play the Chords used on 
the Bridge (G D G Em) 'til the end of 
song.